  0
SECTION
  2
HEADER
  9
$ACADVER
  1
AC1015
  9
$ACADMAINTVER
 70
     6
  9
$DWGCODEPAGE
  3
ANSI_1254
  9
$INSBASE
 10
0.0
 20
0.0
 30
0.0
  9
$EXTMIN
 10
0.0
 20
0.0
 30
0.0
  9
$EXTMAX
 10
279.4
 20
215.9
 30
0.0
  9
$LIMMIN
 10
0.0
 20
0.0
  9
$LIMMAX
 10
279.4
 20
215.9
  9
$ORTHOMODE
 70
     0
  9
$REGENMODE
 70
     1
  9
$FILLMODE
 70
     1
  9
$QTEXTMODE
 70
     0
  9
$MIRRTEXT
 70
     1
  9
$LTSCALE
 40
1.0
  9
$ATTMODE
 70
     1
  9
$TEXTSIZE
 40
3.5
  9
$TRACEWID
 40
1.0
  9
$TEXTSTYLE
  7
Standard
  9
$CLAYER
  8
0
  9
$CELTYPE
  6
ByLayer
  9
$CECOLOR
 62
   256
  9
$CELTSCALE
 40
1.0
  9
$DISPSILH
 70
     0
  9
$DIMSCALE
 40
1.0
  9
$DIMASZ
 40
3.5
  9
$DIMEXO
 40
1.0
  9
$DIMDLI
 40
3.75
  9
$DIMRND
 40
0.0
  9
$DIMDLE
 40
0.0
  9
$DIMEXE
 40
1.0
  9
$DIMTP
 40
0.0
  9
$DIMTM
 40
0.0
  9
$DIMTXT
 40
3.5
  9
$DIMCEN
 40
2.5
  9
$DIMTSZ
 40
0.0
  9
$DIMTOL
 70
     0
  9
$DIMLIM
 70
     0
  9
$DIMTIH
 70
     1
  9
$DIMTOH
 70
     1
  9
$DIMSE1
 70
     0
  9
$DIMSE2
 70
     0
  9
$DIMTAD
 70
     1
  9
$DIMZIN
 70
     0
  9
$DIMBLK
  1

  9
$DIMASO
 70
     1
  9
$DIMSHO
 70
     1
  9
$DIMPOST
  1

  9
$DIMAPOST
  1

  9
$DIMALT
 70
     0
  9
$DIMALTD
 70
     3
  9
$DIMALTF
 40
0.0393700787
  9
$DIMLFAC
 40
1.0
  9
$DIMTOFL
 70
     1
  9
$DIMTVP
 40
0.0
  9
$DIMTIX
 70
     0
  9
$DIMSOXD
 70
     0
  9
$DIMSAH
 70
     0
  9
$DIMBLK1
  1

  9
$DIMBLK2
  1

  9
$DIMSTYLE
  2
ISO-25
  9
$DIMCLRD
 70
     0
  9
$DIMCLRE
 70
     0
  9
$DIMCLRT
 70
     0
  9
$DIMTFAC
 40
1.0
  9
$DIMGAP
 40
1.524
  9
$DIMJUST
 70
     0
  9
$DIMSD1
 70
     0
  9
$DIMSD2
 70
     0
  9
$DIMTOLJ
 70
     0
  9
$DIMTZIN
 70
     0
  9
$DIMALTZ
 70
     0
  9
$DIMALTTZ
 70
     0
  9
$DIMUPT
 70
     0
  9
$DIMDEC
 70
     2
  9
$DIMTDEC
 70
     2
  9
$DIMALTU
 70
     2
  9
$DIMALTTD
 70
     3
  9
$DIMTXSTY
  7
Standard
  9
$DIMAUNIT
 70
     0
  9
$DIMADEC
 70
     2
  9
$DIMALTRND
 40
0.0
  9
$DIMAZIN
 70
     0
  9
$DIMDSEP
 70
    44
  9
$DIMATFIT
 70
     3
  9
$DIMFRAC
 70
     0
  9
$DIMLDRBLK
  1

  9
$DIMLUNIT
 70
     2
  9
$DIMLWD
 70
    -2
  9
$DIMLWE
 70
    -2
  9
$DIMTMOVE
 70
     0
  9
$LUNITS
 70
     2
  9
$LUPREC
 70
     2
  9
$SKETCHINC
 40
1.0
  9
$FILLETRAD
 40
10.0
  9
$AUNITS
 70
     0
  9
$AUPREC
 70
     2
  9
$MENU
  1
.
  9
$ELEVATION
 40
0.0
  9
$PELEVATION
 40
0.0
  9
$THICKNESS
 40
0.0
  9
$LIMCHECK
 70
     0
  9
$CHAMFERA
 40
0.0
  9
$CHAMFERB
 40
0.0
  9
$CHAMFERC
 40
0.0
  9
$CHAMFERD
 40
0.0
  9
$SKPOLY
 70
     0
  9
$TDCREATE
 40
2458985.646425694
  9
$TDUCREATE
 40
2458985.521425694
  9
$TDUPDATE
 40
2458985.646425926
  9
$TDUUPDATE
 40
2458985.521425926
  9
$TDINDWG
 40
0.0000000116
  9
$TDUSRTIMER
 40
0.0000000116
  9
$USRTIMER
 70
     1
  9
$ANGBASE
 50
0.0
  9
$ANGDIR
 70
     0
  9
$PDMODE
 70
     0
  9
$PDSIZE
 40
-1.0
  9
$PLINEWID
 40
0.0
  9
$SPLFRAME
 70
     0
  9
$SPLINETYPE
 70
     6
  9
$SPLINESEGS
 70
     8
  9
$HANDSEED
  5
C2
  9
$SURFTAB1
 70
     6
  9
$SURFTAB2
 70
     6
  9
$SURFTYPE
 70
     6
  9
$SURFU
 70
     6
  9
$SURFV
 70
     6
  9
$UCSBASE
  2

  9
$UCSNAME
  2

  9
$UCSORG
 10
0.0
 20
0.0
 30
0.0
  9
$UCSXDIR
 10
1.0
 20
0.0
 30
0.0
  9
$UCSYDIR
 10
0.0
 20
1.0
 30
0.0
  9
$UCSORTHOREF
  2

  9
$UCSORTHOVIEW
 70
     0
  9
$UCSORGTOP
 10
0.0
 20
0.0
 30
0.0
  9
$UCSORGBOTTOM
 10
0.0
 20
0.0
 30
0.0
  9
$UCSORGLEFT
 10
0.0
 20
0.0
 30
0.0
  9
$UCSORGRIGHT
 10
0.0
 20
0.0
 30
0.0
  9
$UCSORGFRONT
 10
0.0
 20
0.0
 30
0.0
  9
$UCSORGBACK
 10
0.0
 20
0.0
 30
0.0
  9
$PUCSBASE
  2

  9
$PUCSNAME
  2

  9
$PUCSORG
 10
0.0
 20
0.0
 30
0.0
  9
$PUCSXDIR
 10
1.0
 20
0.0
 30
0.0
  9
$PUCSYDIR
 10
0.0
 20
1.0
 30
0.0
  9
$PUCSORTHOREF
  2

  9
$PUCSORTHOVIEW
 70
     0
  9
$PUCSORGTOP
 10
0.0
 20
0.0
 30
0.0
  9
$PUCSORGBOTTOM
 10
0.0
 20
0.0
 30
0.0
  9
$PUCSORGLEFT
 10
0.0
 20
0.0
 30
0.0
  9
$PUCSORGRIGHT
 10
0.0
 20
0.0
 30
0.0
  9
$PUCSORGFRONT
 10
0.0
 20
0.0
 30
0.0
  9
$PUCSORGBACK
 10
0.0
 20
0.0
 30
0.0
  9
$USERI1
 70
     0
  9
$USERI2
 70
     0
  9
$USERI3
 70
     0
  9
$USERI4
 70
     0
  9
$USERI5
 70
     0
  9
$USERR1
 40
0.0
  9
$USERR2
 40
0.0
  9
$USERR3
 40
0.0
  9
$USERR4
 40
0.0
  9
$USERR5
 40
0.0
  9
$WORLDVIEW
 70
     1
  9
$SHADEDGE
 70
     3
  9
$SHADEDIF
 70
    70
  9
$TILEMODE
 70
     1
  9
$MAXACTVP
 70
    64
  9
$PINSBASE
 10
0.0
 20
0.0
 30
0.0
  9
$PLIMCHECK
 70
     0
  9
$PEXTMIN
 10
1.0000000000E+20
 20
1.0000000000E+20
 30
1.0000000000E+20
  9
$PEXTMAX
 10
-1.0000000000E+20
 20
-1.0000000000E+20
 30
-1.0000000000E+20
  9
$PLIMMIN
 10
0.0
 20
0.0
  9
$PLIMMAX
 10
420.0
 20
297.0
  9
$UNITMODE
 70
     0
  9
$VISRETAIN
 70
     1
  9
$PLINEGEN
 70
     0
  9
$PSLTSCALE
 70
     1
  9
$TREEDEPTH
 70
  3020
  9
$CMLSTYLE
  2
Standard
  9
$CMLJUST
 70
     0
  9
$CMLSCALE
 40
20.0
  9
$PROXYGRAPHICS
 70
     1
  9
$MEASUREMENT
 70
     1
  9
$CELWEIGHT
370
    -1
  9
$ENDCAPS
280
     0
  9
$JOINSTYLE
280
     0
  9
$LWDISPLAY
290
     1
  9
$INSUNITS
 70
     4
  9
$HYPERLINKBASE
  1

  9
$STYLESHEET
  1

  9
$XEDIT
290
     1
  9
$CEPSNTYPE
380
     0
  9
$PSTYLEMODE
290
     1
  9
$FINGERPRINTGUID
  2
{722357d8-7e07-45b2-b389-75672ab8cb62}
  9
$VERSIONGUID
  2
{FAEB1C32-E019-11D5-929B-00C0DF256EC4}
  9
$EXTNAMES
290
     1
  9
$PSVPSCALE
 40
0.0
  9
$OLESTARTUP
290
     0
  0
ENDSEC
  0
SECTION
  2
CLASSES
  0
CLASS
  1
ACDBDICTIONARYWDFLT
  2
AcDbDictionaryWithDefault
  3
ObjectDBX Classes
 90
        0
280
     0
281
     0
  0
CLASS
  1
VISUALSTYLE
  2
AcDbVisualStyle
  3
ObjectDBX Classes
 90
     4095
280
     0
281
     0
  0
CLASS
  1
MATERIAL
  2
AcDbMaterial
  3
ObjectDBX Classes
 90
     1153
280
     0
281
     0
  0
CLASS
  1
SCALE
  2
AcDbScale
  3
ObjectDBX Classes
 90
     1153
280
     0
281
     0
  0
CLASS
  1
TABLESTYLE
  2
AcDbTableStyle
  3
ObjectDBX Classes
 90
     4095
280
     0
281
     0
  0
CLASS
  1
MLEADERSTYLE
  2
AcDbMLeaderStyle
  3
ACDB_MLEADERSTYLE_CLASS
 90
     4095
280
     0
281
     0
  0
CLASS
  1
SUN
  2
AcDbSun
  3
SCENEOE
 90
     1153
280
     0
281
     0
  0
CLASS
  1
ACDBPLACEHOLDER
  2
AcDbPlaceHolder
  3
ObjectDBX Classes
 90
        0
280
     0
281
     0
  0
CLASS
  1
LAYOUT
  2
AcDbLayout
  3
ObjectDBX Classes
 90
        0
280
     0
281
     0
  0
ENDSEC
  0
SECTION
  2
TABLES
  0
TABLE
  2
VPORT
  5
8
330
0
100
AcDbSymbolTable
 70
     1
  0
VPORT
  5
29
330
8
100
AcDbSymbolTableRecord
100
AcDbViewportTableRecord
  2
*Active
 70
     0
 10
0.0
 20
0.0
 11
1.0
 21
1.0
 12
139.7
 22
107.95
 13
0.0
 23
0.0
 14
10.0
 24
10.0
 15
10.0
 25
10.0
 16
0.0
 26
0.0
 36
1.0
 17
0.0
 27
0.0
 37
0.0
 40
215.9
 41
1.2941176471
 42
50.0
 43
0.0
 44
0.0
 50
0.0
 51
0.0
 71
     0
 72
  2000
 73
     1
 74
     3
 75
     0
 76
     0
 77
     0
 78
     0
281
     0
 65
     1
110
0.0
120
0.0
130
0.0
111
1.0
121
0.0
131
0.0
112
0.0
122
1.0
132
0.0
 79
     0
146
0.0
  0
ENDTAB
  0
TABLE
  2
LTYPE
  5
5
330
0
100
AcDbSymbolTable
 70
     6
  0
LTYPE
  5
14
330
5
100
AcDbSymbolTableRecord
100
AcDbLinetypeTableRecord
  2
ByBlock
 70
     0
  3

 72
    65
 73
     0
 40
0.0
  0
LTYPE
  5
15
330
5
100
AcDbSymbolTableRecord
100
AcDbLinetypeTableRecord
  2
ByLayer
 70
     0
  3

 72
    65
 73
     0
 40
0.0
  0
LTYPE
  5
16
330
5
100
AcDbSymbolTableRecord
100
AcDbLinetypeTableRecord
  2
Continuous
 70
     0
  3
Solid line
 72
    65
 73
     0
 40
0.0
  0
LTYPE
  5
6E
330
5
100
AcDbSymbolTableRecord
100
AcDbLinetypeTableRecord
  2
HIDDEN
 70
     0
  3
Hidden __ __ __ __ __ __ __ __ __ __ __ __ __ __
 72
    65
 73
     2
 40
1.905
 49
1.27
 74
     0
 49
-0.635
 74
     0
  0
LTYPE
  5
6F
330
5
100
AcDbSymbolTableRecord
100
AcDbLinetypeTableRecord
  2
PHANTOM
 70
     0
  3
Phantom ______  __  __  ______  __  __  ______
 72
    65
 73
     6
 40
12.7
 49
6.35
 74
     0
 49
-1.27
 74
     0
 49
1.27
 74
     0
 49
-1.27
 74
     0
 49
1.27
 74
     0
 49
-1.27
 74
     0
  0
LTYPE
  5
70
330
5
100
AcDbSymbolTableRecord
100
AcDbLinetypeTableRecord
  2
CENTER
 70
     0
  3
Center ____ _ ____ _ ____ _ ____ _ ____ _ ____
 72
    65
 73
     4
 40
10.16
 49
6.35
 74
     0
 49
-1.27
 74
     0
 49
1.27
 74
     0
 49
-1.27
 74
     0
  0
LTYPE
  5
71
330
5
100
AcDbSymbolTableRecord
100
AcDbLinetypeTableRecord
  2
CENTERX2
 70
     0
  3
Center (2x) ________  __  ________  __  _____
 72
    65
 73
     4
 40
20.32
 49
12.7
 74
     0
 49
-2.54
 74
     0
 49
2.54
 74
     0
 49
-2.54
 74
     0
  0
LTYPE
  5
72
330
5
100
AcDbSymbolTableRecord
100
AcDbLinetypeTableRecord
  2
DOT2
 70
     0
  3
Dot (.5x) ........................................
 72
    65
 73
     2
 40
0.635
 49
0.0
 74
     0
 49
-0.635
 74
     0
  0
ENDTAB
  0
TABLE
  2
LAYER
  5
2
330
0
100
AcDbSymbolTable
 70
    17
  0
LAYER
  5
10
330
2
100
AcDbSymbolTableRecord
100
AcDbLayerTableRecord
  2
0
 70
     0
 62
     7
  6
Continuous
370
    -3
390
F
  0
LAYER
  5
73
330
2
100
AcDbSymbolTableRecord
100
AcDbLayerTableRecord
  2
FORMAT
 70
     0
 62
     7
  6
Continuous
370
    -3
390
F
  0
LAYER
  5
74
330
2
100
AcDbSymbolTableRecord
100
AcDbLayerTableRecord
  2
YARDIMCI_GEOMETRI
 70
     0
 62
    -6
  6
Continuous
290
     0
370
    -3
390
F
  0
LAYER
  5
75
330
2
100
AcDbSymbolTableRecord
100
AcDbLayerTableRecord
  2
SAYFA_CERCEVESI
 70
     0
 62
     7
  6
Continuous
370
    25
390
F
  0
LAYER
  5
76
330
2
100
AcDbSymbolTableRecord
100
AcDbLayerTableRecord
  2
ANTET
 70
     0
 62
     7
  6
Continuous
370
    -3
390
F
  0
LAYER
  5
77
330
2
100
AcDbSymbolTableRecord
100
AcDbLayerTableRecord
  2
OLCU
 70
     0
 62
   150
  6
Continuous
370
    -3
390
F
  0
LAYER
  5
78
330
2
100
AcDbSymbolTableRecord
100
AcDbLayerTableRecord
  2
METIN
 70
     0
 62
    96
  6
Continuous
370
    -3
390
F
  0
LAYER
  5
79
330
2
100
AcDbSymbolTableRecord
100
AcDbLayerTableRecord
  2
BALON
 70
     0
 62
     5
  6
Continuous
370
    -3
390
F
  0
LAYER
  5
7A
330
2
100
AcDbSymbolTableRecord
100
AcDbLayerTableRecord
  2
VURGU
 70
     0
 62
     7
  6
Continuous
370
    -3
390
F
  0
LAYER
  5
7B
330
2
100
AcDbSymbolTableRecord
100
AcDbLayerTableRecord
  2
SILIK
 70
     0
 62
     7
  6
Continuous
370
    -3
390
F
  0
LAYER
  5
7C
330
2
100
AcDbSymbolTableRecord
100
AcDbLayerTableRecord
  2
MODEL
 70
     0
 62
     7
  6
Continuous
370
    -3
390
F
  0
LAYER
  5
7D
330
2
100
AcDbSymbolTableRecord
100
AcDbLayerTableRecord
  2
DETAYLANDıRMA
 70
     0
 62
   190
  6
Continuous
370
    -3
390
F
  0
LAYER
  5
7E
330
2
100
AcDbSymbolTableRecord
100
AcDbLayerTableRecord
  2
TOLERANS
 70
     0
 62
   230
  6
Continuous
370
    -3
390
F
  0
LAYER
  5
7F
330
2
100
AcDbSymbolTableRecord
100
AcDbLayerTableRecord
  2
MERKEZ_CIZGILERI
 70
     0
 62
    30
  6
Continuous
370
    -3
390
F
  0
LAYER
  5
80
330
2
100
AcDbSymbolTableRecord
100
AcDbLayerTableRecord
  2
KESIT-DETAY_CIZGILERI
 70
     0
 62
     7
  6
Continuous
370
    -3
390
F
  0
LAYER
  5
81
330
2
100
AcDbSymbolTableRecord
100
AcDbLayerTableRecord
  2
\U+041E\U+0421\U+0415\U+0412\U+042B\U+0415
 70
     0
 62
     7
  6
Continuous
370
    -3
390
F
  0
LAYER
  5
82
330
2
100
AcDbSymbolTableRecord
100
AcDbLayerTableRecord
  2
\U+0412\U+041E\U+0414\U+042F\U+041D\U+042B\U+0415_\U+0417\U+041D\U+0410\U+041A\U+0418
 70
     0
 62
    11
  6
Continuous
370
    -3
390
F
  0
ENDTAB
  0
TABLE
  2
STYLE
  5
3
330
0
100
AcDbSymbolTable
 70
     1
  0
STYLE
  5
11
330
3
100
AcDbSymbolTableRecord
100
AcDbTextStyleTableRecord
  2
Standard
 70
     0
 40
0.0
 41
1.0
 50
0.0
 71
     0
 42
3.5
  3
txt
  4

  0
ENDTAB
  0
TABLE
  2
VIEW
  5
6
330
0
100
AcDbSymbolTable
 70
     0
  0
ENDTAB
  0
TABLE
  2
UCS
  5
7
330
0
100
AcDbSymbolTable
 70
     0
  0
ENDTAB
  0
TABLE
  2
APPID
  5
9
330
0
100
AcDbSymbolTable
 70
     1
  0
APPID
  5
12
330
9
100
AcDbSymbolTableRecord
100
AcDbRegAppTableRecord
  2
ACAD
 70
     0
  0
ENDTAB
  0
TABLE
  2
DIMSTYLE
  5
A
330
0
100
AcDbSymbolTable
 70
     1
100
AcDbDimStyleTable
  0
DIMSTYLE
105
27
330
A
100
AcDbSymbolTableRecord
100
AcDbDimStyleTableRecord
  2
ISO-25
 70
     0
 41
2.5
 42
0.625
 43
3.75
 44
1.25
 73
     0
 74
     0
 77
     1
 78
     8
140
2.5
141
2.5
143
0.0393700787
147
0.625
171
     3
172
     1
178
     0
271
     2
272
     2
274
     3
278
    44
283
     0
284
     8
340
11
  0
ENDTAB
  0
TABLE
  2
BLOCK_RECORD
  5
1
330
0
100
AcDbSymbolTable
 70
     1
  0
BLOCK_RECORD
  5
1F
330
1
100
AcDbSymbolTableRecord
100
AcDbBlockTableRecord
  2
*Model_Space
340
22
  0
BLOCK_RECORD
  5
1B
330
1
100
AcDbSymbolTableRecord
100
AcDbBlockTableRecord
  2
*Paper_Space
340
1E
  0
BLOCK_RECORD
  5
23
330
1
100
AcDbSymbolTableRecord
100
AcDbBlockTableRecord
  2
*Paper_Space0
340
26
  0
ENDTAB
  0
ENDSEC
  0
SECTION
  2
BLOCKS
  0
BLOCK
  5
20
330
1F
100
AcDbEntity
  8
0
100
AcDbBlockBegin
  2
*Model_Space
 70
     0
 10
0.0
 20
0.0
 30
0.0
  3
*Model_Space
  1

  0
ENDBLK
  5
21
330
1F
100
AcDbEntity
  8
0
100
AcDbBlockEnd
  0
BLOCK
  5
1C
330
1B
100
AcDbEntity
 67
     1
  8
0
100
AcDbBlockBegin
  2
*Paper_Space
 70
     0
 10
0.0
 20
0.0
 30
0.0
  3
*Paper_Space
  1

  0
ENDBLK
  5
1D
330
1B
100
AcDbEntity
 67
     1
  8
0
100
AcDbBlockEnd
  0
BLOCK
  5
24
330
23
100
AcDbEntity
  8
0
100
AcDbBlockBegin
  2
*Paper_Space0
 70
     0
 10
0.0
 20
0.0
 30
0.0
  3
*Paper_Space0
  1

  0
ENDBLK
  5
25
330
23
100
AcDbEntity
  8
0
100
AcDbBlockEnd
  0
ENDSEC
  0
SECTION
  2
ENTITIES
  0
CIRCLE
  5
83
330
1F
100
AcDbEntity
  8
0
  6
Continuous
 62
     7
370
    25
100
AcDbCircle
 10
126.6109639298
 20
113.580996388
 30
0.0
 40
315.0
  0
CIRCLE
  5
84
330
1F
100
AcDbEntity
  8
0
  6
Continuous
 62
     7
370
    25
100
AcDbCircle
 10
126.6109639298
 20
113.580996388
 30
0.0
 40
257.8
  0
CIRCLE
  5
85
330
1F
100
AcDbEntity
  8
0
  6
Continuous
 62
     7
370
    25
100
AcDbCircle
 10
126.6109639298
 20
113.580996388
 30
0.0
 40
322.5
  0
CIRCLE
  5
86
330
1F
100
AcDbEntity
  8
0
  6
Continuous
 62
     7
370
    25
100
AcDbCircle
 10
126.6109639298
 20
113.580996388
 30
0.0
 40
345.0
  0
LINE
  5
87
330
1F
100
AcDbEntity
  8
0
  6
Continuous
 62
     7
370
    25
100
AcDbLine
 10
471.6109639298
 20
794.418503244
 30
0.0
 11
471.6109639298
 21
859.418503244
 31
0.0
  0
LINE
  5
88
330
1F
100
AcDbEntity
  8
0
  6
Continuous
 62
     7
370
    25
100
AcDbLine
 10
-218.3890360702
 20
859.418503244
 30
0.0
 11
-218.3890360702
 21
794.418503244
 31
0.0
  0
LINE
  5
89
330
1F
100
AcDbEntity
  8
0
  6
Continuous
 62
     7
370
    25
100
AcDbLine
 10
449.1109639298
 20
859.418503244
 30
0.0
 11
441.6109639298
 21
889.418503244
 31
0.0
  0
LINE
  5
8A
330
1F
100
AcDbEntity
  8
0
  6
Continuous
 62
     7
370
    25
100
AcDbLine
 10
-188.3890360702
 20
889.418503244
 30
0.0
 11
-195.8890360702
 21
859.418503244
 31
0.0
  0
LINE
  5
8B
330
1F
100
AcDbEntity
  8
0
  6
Continuous
 62
     7
370
    25
100
AcDbLine
 10
441.6109639298
 20
889.418503244
 30
0.0
 11
441.6109639298
 21
934.418503244
 31
0.0
  0
LINE
  5
8C
330
1F
100
AcDbEntity
  8
0
  6
Continuous
 62
     7
370
    25
100
AcDbLine
 10
-188.3890360702
 20
934.418503244
 30
0.0
 11
-188.3890360702
 21
889.418503244
 31
0.0
  0
LINE
  5
8D
330
1F
100
AcDbEntity
  8
0
  6
Continuous
 62
     7
370
    25
100
AcDbLine
 10
471.6109639298
 20
794.418503244
 30
0.0
 11
-218.3890360702
 21
794.418503244
 31
0.0
  0
LINE
  5
8E
330
1F
100
AcDbEntity
  8
0
  6
Continuous
 62
     7
370
    25
100
AcDbLine
 10
471.6109639298
 20
859.418503244
 30
0.0
 11
-218.3890360702
 21
859.418503244
 31
0.0
  0
LINE
  5
8F
330
1F
100
AcDbEntity
  8
0
  6
Continuous
 62
     7
370
    25
100
AcDbLine
 10
441.6109639298
 20
889.418503244
 30
0.0
 11
-188.3890360702
 21
889.418503244
 31
0.0
  0
LINE
  5
90
330
1F
100
AcDbEntity
  8
0
  6
Continuous
 62
     7
370
    25
100
AcDbLine
 10
441.6109639298
 20
934.418503244
 30
0.0
 11
-188.3890360702
 21
934.418503244
 31
0.0
  0
LINE
  5
91
330
1F
100
AcDbEntity
  8
0
  6
Continuous
 62
     7
370
    25
100
AcDbLine
 10
-570.4592207489
 20
458.580996388
 30
0.0
 11
-635.4592207489
 21
458.580996388
 31
0.0
  0
LINE
  5
92
330
1F
100
AcDbEntity
  8
0
  6
Continuous
 62
     7
370
    25
100
AcDbLine
 10
-635.4592207489
 20
-231.419003612
 30
0.0
 11
-570.4592207489
 21
-231.419003612
 31
0.0
  0
LINE
  5
93
330
1F
100
AcDbEntity
  8
0
  6
Continuous
 62
     7
370
    25
100
AcDbLine
 10
-635.4592207489
 20
436.080996388
 30
0.0
 11
-665.4592207489
 21
428.580996388
 31
0.0
  0
LINE
  5
94
330
1F
100
AcDbEntity
  8
0
  6
Continuous
 62
     7
370
    25
100
AcDbLine
 10
-665.4592207489
 20
-201.419003612
 30
0.0
 11
-635.4592207489
 21
-208.919003612
 31
0.0
  0
LINE
  5
95
330
1F
100
AcDbEntity
  8
0
  6
Continuous
 62
     7
370
    25
100
AcDbLine
 10
-665.4592207489
 20
428.580996388
 30
0.0
 11
-710.4592207489
 21
428.580996388
 31
0.0
  0
LINE
  5
96
330
1F
100
AcDbEntity
  8
0
  6
Continuous
 62
     7
370
    25
100
AcDbLine
 10
-710.4592207489
 20
-201.419003612
 30
0.0
 11
-665.4592207489
 21
-201.419003612
 31
0.0
  0
LINE
  5
97
330
1F
100
AcDbEntity
  8
0
  6
Continuous
 62
     7
370
    25
100
AcDbLine
 10
-570.4592207489
 20
458.580996388
 30
0.0
 11
-570.4592207489
 21
-231.419003612
 31
0.0
  0
LINE
  5
98
330
1F
100
AcDbEntity
  8
0
  6
Continuous
 62
     7
370
    25
100
AcDbLine
 10
-635.4592207489
 20
458.580996388
 30
0.0
 11
-635.4592207489
 21
-231.419003612
 31
0.0
  0
LINE
  5
99
330
1F
100
AcDbEntity
  8
0
  6
Continuous
 62
     7
370
    25
100
AcDbLine
 10
-665.4592207489
 20
428.580996388
 30
0.0
 11
-665.4592207489
 21
-201.419003612
 31
0.0
  0
LINE
  5
9A
330
1F
100
AcDbEntity
  8
0
  6
Continuous
 62
     7
370
    25
100
AcDbLine
 10
-710.4592207489
 20
428.580996388
 30
0.0
 11
-710.4592207489
 21
-201.419003612
 31
0.0
  0
LINE
  5
9B
330
1F
100
AcDbEntity
  8
0
  6
Continuous
 62
     7
370
    25
100
AcDbLine
 10
-218.3890360702
 20
-666.3274222148
 30
0.0
 11
-218.3890360702
 21
-731.3274222148
 31
0.0
  0
LINE
  5
9C
330
1F
100
AcDbEntity
  8
0
  6
Continuous
 62
     7
370
    25
100
AcDbLine
 10
471.6109639298
 20
-731.3274222148
 30
0.0
 11
471.6109639298
 21
-666.3274222148
 31
0.0
  0
LINE
  5
9D
330
1F
100
AcDbEntity
  8
0
  6
Continuous
 62
     7
370
    25
100
AcDbLine
 10
-195.8890360702
 20
-731.3274222148
 30
0.0
 11
-188.3890360702
 21
-761.3274222148
 31
0.0
  0
LINE
  5
9E
330
1F
100
AcDbEntity
  8
0
  6
Continuous
 62
     7
370
    25
100
AcDbLine
 10
441.6109639298
 20
-761.3274222148
 30
0.0
 11
449.1109639298
 21
-731.3274222148
 31
0.0
  0
LINE
  5
9F
330
1F
100
AcDbEntity
  8
0
  6
Continuous
 62
     7
370
    25
100
AcDbLine
 10
-188.3890360702
 20
-761.3274222148
 30
0.0
 11
-188.3890360702
 21
-806.3274222148
 31
0.0
  0
LINE
  5
A0
330
1F
100
AcDbEntity
  8
0
  6
Continuous
 62
     7
370
    25
100
AcDbLine
 10
441.6109639298
 20
-806.3274222148
 30
0.0
 11
441.6109639298
 21
-761.3274222148
 31
0.0
  0
LINE
  5
A1
330
1F
100
AcDbEntity
  8
0
  6
Continuous
 62
     7
370
    25
100
AcDbLine
 10
-218.3890360702
 20
-666.3274222148
 30
0.0
 11
471.6109639298
 21
-666.3274222148
 31
0.0
  0
LINE
  5
A2
330
1F
100
AcDbEntity
  8
0
  6
Continuous
 62
     7
370
    25
100
AcDbLine
 10
-218.3890360702
 20
-731.3274222148
 30
0.0
 11
471.6109639298
 21
-731.3274222148
 31
0.0
  0
LINE
  5
A3
330
1F
100
AcDbEntity
  8
0
  6
Continuous
 62
     7
370
    25
100
AcDbLine
 10
-188.3890360702
 20
-761.3274222148
 30
0.0
 11
441.6109639298
 21
-761.3274222148
 31
0.0
  0
LINE
  5
A4
330
1F
100
AcDbEntity
  8
0
  6
Continuous
 62
     7
370
    25
100
AcDbLine
 10
-188.3890360702
 20
-806.3274222148
 30
0.0
 11
441.6109639298
 21
-806.3274222148
 31
0.0
  0
LINE
  5
A5
330
1F
100
AcDbEntity
  8
0
  6
Continuous
 62
     7
370
    25
100
AcDbLine
 10
870.1598563033
 20
-231.419003612
 30
0.0
 11
935.1598563033
 21
-231.419003612
 31
0.0
  0
LINE
  5
A6
330
1F
100
AcDbEntity
  8
0
  6
Continuous
 62
     7
370
    25
100
AcDbLine
 10
935.1598563033
 20
458.580996388
 30
0.0
 11
870.1598563033
 21
458.580996388
 31
0.0
  0
LINE
  5
A7
330
1F
100
AcDbEntity
  8
0
  6
Continuous
 62
     7
370
    25
100
AcDbLine
 10
935.1598563033
 20
-208.919003612
 30
0.0
 11
965.1598563033
 21
-201.419003612
 31
0.0
  0
LINE
  5
A8
330
1F
100
AcDbEntity
  8
0
  6
Continuous
 62
     7
370
    25
100
AcDbLine
 10
965.1598563033
 20
428.580996388
 30
0.0
 11
935.1598563033
 21
436.080996388
 31
0.0
  0
LINE
  5
A9
330
1F
100
AcDbEntity
  8
0
  6
Continuous
 62
     7
370
    25
100
AcDbLine
 10
965.1598563033
 20
-201.419003612
 30
0.0
 11
1010.1598563033
 21
-201.419003612
 31
0.0
  0
LINE
  5
AA
330
1F
100
AcDbEntity
  8
0
  6
Continuous
 62
     7
370
    25
100
AcDbLine
 10
1010.1598563033
 20
428.580996388
 30
0.0
 11
965.1598563033
 21
428.580996388
 31
0.0
  0
LINE
  5
AB
330
1F
100
AcDbEntity
  8
0
  6
Continuous
 62
     7
370
    25
100
AcDbLine
 10
870.1598563033
 20
113.580996388
 30
0.0
 11
870.1598563033
 21
458.580996388
 31
0.0
  0
LINE
  5
AC
330
1F
100
AcDbEntity
  8
0
  6
Continuous
 62
     7
370
    25
100
AcDbLine
 10
870.1598563033
 20
-231.419003612
 30
0.0
 11
870.1598563033
 21
113.580996388
 31
0.0
  0
LINE
  5
AD
330
1F
100
AcDbEntity
  8
0
  6
Continuous
 62
     7
370
    25
100
AcDbLine
 10
935.1598563033
 20
113.580996388
 30
0.0
 11
935.1598563033
 21
458.580996388
 31
0.0
  0
LINE
  5
AE
330
1F
100
AcDbEntity
  8
0
  6
Continuous
 62
     7
370
    25
100
AcDbLine
 10
935.1598563033
 20
-231.419003612
 30
0.0
 11
935.1598563033
 21
113.580996388
 31
0.0
  0
LINE
  5
AF
330
1F
100
AcDbEntity
  8
0
  6
Continuous
 62
     7
370
    25
100
AcDbLine
 10
965.1598563033
 20
113.580996388
 30
0.0
 11
965.1598563033
 21
428.580996388
 31
0.0
  0
LINE
  5
B0
330
1F
100
AcDbEntity
  8
0
  6
Continuous
 62
     7
370
    25
100
AcDbLine
 10
965.1598563033
 20
-201.419003612
 30
0.0
 11
965.1598563033
 21
113.580996388
 31
0.0
  0
LINE
  5
B1
330
1F
100
AcDbEntity
  8
0
  6
Continuous
 62
     7
370
    25
100
AcDbLine
 10
1010.1598563033
 20
113.580996388
 30
0.0
 11
1010.1598563033
 21
428.580996388
 31
0.0
  0
LINE
  5
B2
330
1F
100
AcDbEntity
  8
0
  6
Continuous
 62
     7
370
    25
100
AcDbLine
 10
1010.1598563033
 20
-201.419003612
 30
0.0
 11
1010.1598563033
 21
113.580996388
 31
0.0
  0
LINE
  5
B3
330
1F
100
AcDbEntity
  8
0
  6
Continuous
 62
     7
370
    25
100
AcDbLine
 10
1035.1891338412
 20
-429.528272621
 30
0.0
 11
1003.3693286879
 21
-411.159090105
 31
0.0
  0
LINE
  5
B4
330
1F
100
AcDbEntity
  8
0
  6
Continuous
 62
     7
370
    25
100
AcDbLine
 10
688.3949279075
 20
-956.7698734049
 30
0.0
 11
720.2147330609
 21
-975.1390559209
 31
0.0
  0
LINE
  5
B5
330
1F
100
AcDbEntity
  8
0
  6
Continuous
 62
     7
370
    25
100
AcDbLine
 10
1117.3630590435
 20
-442.3261920612
 30
0.0
 11
1071.4011182664
 21
-415.792928427
 31
0.0
  0
LINE
  5
B6
330
1F
100
AcDbEntity
  8
0
  6
Continuous
 62
     7
370
    25
100
AcDbLine
 10
726.4291555069
 20
-1013.3666434696
 30
0.0
 11
772.3910962841
 21
-1039.8999071039
 31
0.0
  0
LINE
  5
B7
330
1F
100
AcDbEntity
  8
0
  6
Continuous
 62
     7
370
    25
100
AcDbLine
 10
1029.1024190817
 20
-423.2200599815
 30
0.0
 11
1021.1551779045
 21
-421.4266423068
 31
0.0
  0
LINE
  5
B8
330
1F
100
AcDbEntity
  8
0
  6
Continuous
 62
     7
370
    25
100
AcDbLine
 10
706.1807771242
 20
-967.0374256067
 30
0.0
 11
711.7081046514
 21
-973.0227108707
 31
0.0
  0
LWPOLYLINE
  5
B9
330
1F
100
AcDbEntity
  8
0
  6
Continuous
 62
     7
370
    25
100
AcDbPolyline
 90
      189
 70
   128
 43
0.0
 10
623.1434922239
 20
-812.548759367
 10
623.267877557
 20
-803.8822751194
 10
623.6408946336
 20
-795.0818579813
 10
624.2621268412
 20
-786.1573368971
 10
625.1308803427
 20
-777.1186794192
 10
626.246184851
 20
-767.975980576
 10
627.6067947133
 20
-758.7394515968
 10
629.2111903017
 20
-749.4194085071
 10
631.0575797109
 20
-740.0262606072
 10
633.1439007592
 20
-730.5704988459
 10
635.4678232919
 20
-721.062684104
 10
638.0267517838
 20
-711.5134353986
 10
640.8178282379
 20
-701.9334180234
 10
643.8379353776
 20
-692.3333316367
 10
647.0837001281
 20
-682.7238983114
 10
650.5514973839
 20
-673.1158505597
 10
654.2374540576
 20
-663.5199193463
 10
658.1374534052
 20
-653.9468221032
 10
662.2471396246
 20
-644.4072507598
 10
666.5619227202
 20
-634.9118598015
 10
671.0769836292
 20
-625.4712543696
 10
675.787279604
 20
-616.0959784172
 10
680.6875498444
 20
-606.7965029324
 10
685.7723213732
 20
-597.5832142441
 10
691.0359151486
 20
-588.4664024214
 10
696.4724524074
 20
-579.4562497811
 10
702.0758612302
 20
-570.5628195152
 10
707.8398833238
 20
-561.7960444519
 10
713.7580810101
 20
-553.1657159613
 10
719.8238444166
 20
-544.6814730204
 10
726.0303988587
 20
-536.3527914473
 10
732.3708124063
 20
-528.1889733175
 10
738.8380036255
 20
-520.1991365754
 10
745.424749488
 20
-512.3922048503
 10
752.1236934384
 20
-504.7768974898
 10
758.9273536099
 20
-497.3617198216
 10
765.8281311815
 20
-490.154953654
 10
772.8183188642
 20
-483.1646480262
 10
779.8901095092
 20
-476.3986102186
 10
787.0356048279
 20
-469.8643970331
 10
794.2468242127
 20
-463.5693063529
 10
801.5157136506
 20
-457.520368992
 10
808.8341547188
 20
-451.7243408423
 10
816.1939736513
 20
-446.1876953286
 10
823.5869504685
 20
-440.9166161782
 10
831.0048281575
 20
-435.9169905146
 10
838.4393218945
 20
-431.1944022825
 10
845.8821282977
 20
-426.7541260109
 10
853.3249347008
 20
-422.6011209226
 10
860.7594284378
 20
-418.7400253948
 10
868.1773061269
 20
-415.1751517791
 10
875.5702829441
 20
-411.9104815849
 10
882.9301018766
 20
-408.9496610328
 10
890.2485429447
 20
-406.295996982
 10
897.5174323827
 20
-403.9524532368
 10
904.7286517674
 20
-401.921647237
 10
911.8741470861
 20
-400.2058471341
 10
918.9459377312
 20
-398.806969258
 10
925.9361254138
 20
-397.726575977
 10
932.8369029854
 20
-396.9658739528
 10
939.640563157
 20
-396.5257127925
 10
946.3395071073
 20
-396.4065841001
 10
952.9262529699
 20
-396.608620927
 10
959.3934441891
 20
-397.131597624
 10
965.7338577366
 20
-397.9749300926
 10
971.9404121788
 20
-399.1376764381
 10
978.0061755853
 20
-400.618538021
 10
983.9243732715
 20
-402.4158609076
 10
989.6883953651
 20
-404.5276377174
 10
995.291804188
 20
-406.9515098648
 10
1000.7283414467
 20
-409.6847701936
 10
1005.9919352222
 20
-412.7243660003
 10
1011.0767067509
 20
-416.066902444
 10
1015.9769769914
 20
-419.7086463374
 10
1020.6872729662
 20
-423.6455303167
 10
1025.2023338751
 20
-427.8731573844
 10
1029.5171169707
 20
-432.38680582
 10
1033.6268031902
 20
-437.1814344533
 10
1037.5268025378
 20
-442.2516882954
 10
1041.2127592114
 20
-447.5919045189
 10
1044.6805564672
 20
-453.196118783
 10
1047.9263212178
 20
-459.0580718947
 10
1050.9464283574
 20
-465.1712167996
 10
1053.7375048116
 20
-471.5287258939
 10
1056.2964333035
 20
-478.1234986503
 10
1058.6203558362
 20
-484.9481695483
 10
1060.7066768845
 20
-491.9951163002
 10
1062.5530662936
 20
-499.2564683649
 10
1064.157461882
 20
-506.7241157375
 10
1065.5180717443
 20
-514.3897180079
 10
1066.6333762527
 20
-522.2447136752
 10
1067.5021297541
 20
-530.2803297107
 10
1068.1233619618
 20
-538.4875913553
 10
1068.4963790384
 20
-546.8573321439
 10
1068.6207643714
 20
-555.3802041429
 10
1068.4963790384
 20
-564.0466883905
 10
1068.1233619618
 20
-572.8471055286
 10
1067.5021297541
 20
-581.7716266128
 10
1066.6333762527
 20
-590.8102840907
 10
1065.5180717443
 20
-599.9529829339
 10
1064.157461882
 20
-609.1895119131
 10
1062.5530662936
 20
-618.5095550028
 10
1060.7066768845
 20
-627.9027029027
 10
1058.6203558362
 20
-637.358464664
 10
1056.2964333035
 20
-646.8662794059
 10
1053.7375048116
 20
-656.4155281113
 10
1050.9464283574
 20
-665.9955454865
 10
1047.9263212178
 20
-675.5956318732
 10
1044.6805564672
 20
-685.2050651985
 10
1041.2127592114
 20
-694.8131129502
 10
1037.5268025378
 20
-704.4090441636
 10
1033.6268031902
 20
-713.9821414067
 10
1029.5171169707
 20
-723.5217127501
 10
1025.2023338751
 20
-733.0171037084
 10
1020.6872729662
 20
-742.4577091403
 10
1015.9769769914
 20
-751.8329850927
 10
1011.0767067509
 20
-761.1324605775
 10
1005.9919352222
 20
-770.3457492658
 10
1000.7283414467
 20
-779.4625610885
 10
995.291804188
 20
-788.4727137288
 10
989.6883953651
 20
-797.3661439947
 10
983.9243732715
 20
-806.132919058
 10
978.0061755853
 20
-814.7632475486
 10
971.9404121788
 20
-823.2474904894
 10
965.7338577366
 20
-831.5761720626
 10
959.3934441891
 20
-839.7399901924
 10
952.9262529699
 20
-847.7298269344
 10
946.3395071073
 20
-855.5367586596
 10
939.640563157
 20
-863.1520660201
 10
932.8369029854
 20
-870.5672436883
 10
925.9361254138
 20
-877.7740098559
 10
918.9459377311
 20
-884.7643154837
 10
911.8741470861
 20
-891.5303532913
 10
904.7286517674
 20
-898.0645664768
 10
897.5174323827
 20
-904.359657157
 10
890.2485429447
 20
-910.4085945179
 10
882.9301018765
 20
-916.2046226676
 10
875.5702829441
 20
-921.7412681813
 10
868.1773061269
 20
-927.0123473317
 10
860.7594284378
 20
-932.0119729953
 10
853.3249347008
 20
-936.7345612274
 10
845.8821282977
 20
-941.174837499
 10
838.4393218945
 20
-945.3278425873
 10
831.0048281575
 20
-949.1889381151
 10
823.5869504685
 20
-952.7538117308
 10
816.1939736513
 20
-956.018481925
 10
808.8341547188
 20
-958.9793024771
 10
801.5157136506
 20
-961.6329665279
 10
794.2468242127
 20
-963.9765102731
 10
787.0356048279
 20
-966.0073162729
 10
779.8901095092
 20
-967.7231163758
 10
772.8183188642
 20
-969.1219942519
 10
765.8281311815
 20
-970.2023875328
 10
758.9273536099
 20
-970.9630895571
 10
752.1236934384
 20
-971.4032507174
 10
745.424749488
 20
-971.5223794098
 10
738.8380036255
 20
-971.3203425829
 10
732.3708124063
 20
-970.7973658859
 10
726.0303988587
 20
-969.9540334173
 10
719.8238444166
 20
-968.7912870718
 10
713.7580810101
 20
-967.3104254889
 10
707.8398833238
 20
-965.5131026023
 10
702.0758612302
 20
-963.4013257925
 10
696.4724524074
 20
-960.9774536451
 10
691.0359151486
 20
-958.2441933163
 10
685.7723213732
 20
-955.2045975096
 10
680.6875498444
 20
-951.8620610659
 10
675.787279604
 20
-948.2203171725
 10
671.0769836292
 20
-944.2834331932
 10
666.5619227202
 20
-940.0558061254
 10
662.2471396246
 20
-935.5421576899
 10
658.1374534052
 20
-930.7475290566
 10
654.2374540576
 20
-925.6772752145
 10
650.5514973839
 20
-920.337058991
 10
647.0837001281
 20
-914.7328447269
 10
643.8379353776
 20
-908.8708916152
 10
640.8178282379
 20
-902.7577467103
 10
638.0267517838
 20
-896.400237616
 10
635.4678232919
 20
-889.8054648596
 10
633.1439007592
 20
-882.9807939616
 10
631.0575797109
 20
-875.9338472097
 10
629.2111903017
 20
-868.672495145
 10
627.6067947133
 20
-861.2048477724
 10
626.246184851
 20
-853.539245502
 10
625.1308803427
 20
-845.6842498346
 10
624.2621268412
 20
-837.6486337992
 10
623.6408946336
 20
-829.4413721546
 10
623.267877557
 20
-821.071631366
 10
623.1434922239
 20
-812.548759367
  0
LWPOLYLINE
  5
BA
330
1F
100
AcDbEntity
  8
0
  6
Continuous
 62
     7
370
    25
100
AcDbPolyline
 90
      171
 70
   128
 43
0.0
 10
663.5900001078
 20
-789.1994873689
 10
663.7144946677
 20
-781.3491715843
 10
664.087808303
 20
-773.3658400274
 10
664.7094311121
 20
-765.2603969688
 10
665.5785140329
 20
-757.0439134688
 10
666.6938700029
 20
-748.7276122556
 10
668.0539755798
 20
-740.3228523961
 10
669.6569730231
 20
-731.8411137815
 10
671.5006728311
 20
-723.2939814465
 10
673.5825567316
 20
-714.6931297456
 10
675.8997811216
 20
-706.0503064078
 10
678.4491809513
 20
-697.3773164902
 10
681.2272740473
 20
-688.6860062537
 10
684.2302658685
 20
-679.9882469826
 10
687.4540546893
 20
-671.29591877
 10
690.894237202
 20
-662.6208942906
 10
694.546114531
 20
-653.9750225843
 10
698.4046986513
 20
-645.3701128719
 10
702.4647192009
 20
-636.817918425
 10
706.7206306803
 20
-628.3301205126
 10
711.1666200262
 20
-619.9183124456
 10
715.796614552
 20
-611.593983742
 10
720.6042902422
 20
-603.3685044336
 10
725.5830803899
 20
-595.2531095355
 10
730.7261845668
 20
-587.2588837012
 10
736.0265779112
 20
-579.3967460816
 10
741.4770207233
 20
-571.6774354108
 10
747.0700683538
 20
-564.1114953387
 10
752.7980813726
 20
-556.7092600294
 10
758.6532360027
 20
-549.480840046
 10
764.6275348073
 20
-542.4361085407
 10
770.7128176128
 20
-535.5846877693
 10
776.9007726549
 20
-528.9359359484
 10
783.1829479313
 20
-522.4989344734
 10
789.5507627462
 20
-516.2824755139
 10
795.9955194306
 20
-510.2950500051
 10
802.5084152221
 20
-504.54483605
 10
809.0805542883
 20
-499.0396877493
 10
815.702959878
 20
-493.7871244734
 10
822.3665865816
 20
-488.7943205918
 10
829.0623326865
 20
-484.0680956741
 10
835.7810526091
 20
-479.6149051751
 10
842.5135693861
 20
-475.4408316173
 10
849.2506872093
 20
-471.5515762831
 10
855.9832039862
 20
-467.9524514274
 10
862.7019239088
 20
-464.6483730219
 10
869.3976700138
 20
-461.6438540403
 10
876.0612967174
 20
-458.9429982941
 10
882.683702307
 20
-456.5494948274
 10
889.2558413733
 20
-454.4666128779
 10
895.7687371647
 20
-452.6971974119
 10
902.2134938491
 20
-451.2436652381
 10
908.5813086641
 20
-450.1080017067
 10
914.8634839405
 20
-449.2917579973
 10
921.0514389825
 20
-448.7960490006
 10
927.136721788
 20
-448.6215517957
 10
933.1110205926
 20
-448.7685047246
 10
938.9661752228
 20
-449.2367070673
 10
944.6941882415
 20
-450.0255193158
 10
950.2872358721
 20
-451.1338640474
 10
955.7376786842
 20
-452.5602273965
 10
961.0380720286
 20
-454.3026611223
 10
966.1811762054
 20
-456.3587852701
 10
971.1599663532
 20
-458.7257914214
 10
975.9676420433
 20
-461.4004465306
 10
980.5976365691
 20
-464.3790973407
 10
985.0436259151
 20
-467.6576753727
 10
989.2995373944
 20
-471.2317024836
 10
993.3595579441
 20
-475.0962969822
 10
997.2181420643
 20
-479.2461802973
 10
1000.8700193933
 20
-483.6756841874
 10
1004.310201906
 20
-488.3787584831
 10
1007.5339907268
 20
-493.3489793504
 10
1010.536982548
 20
-498.5795580657
 10
1013.315075644
 20
-504.0633502876
 10
1015.8644754738
 20
-509.7928658154
 10
1018.1816998638
 20
-515.7602788202
 10
1020.2635837643
 20
-521.9574385335
 10
1022.1072835722
 20
-528.3758803808
 10
1023.7102810155
 20
-535.0068375423
 10
1025.0703865925
 20
-541.8412529284
 10
1026.1857425624
 20
-548.8697915495
 10
1027.0548254833
 20
-556.0828532675
 10
1027.6764482923
 20
-563.4705859076
 10
1028.0497619276
 20
-571.0228987158
 10
1028.1742564876
 20
-578.729476141
 10
1028.0497619276
 20
-586.5797919256
 10
1027.6764482923
 20
-594.5631234825
 10
1027.0548254833
 20
-602.6685665411
 10
1026.1857425624
 20
-610.8850500411
 10
1025.0703865925
 20
-619.2013512543
 10
1023.7102810155
 20
-627.6061111138
 10
1022.1072835722
 20
-636.0878497284
 10
1020.2635837643
 20
-644.6349820634
 10
1018.1816998638
 20
-653.2358337643
 10
1015.8644754738
 20
-661.8786571021
 10
1013.315075644
 20
-670.5516470197
 10
1010.536982548
 20
-679.2429572562
 10
1007.5339907268
 20
-687.9407165273
 10
1004.310201906
 20
-696.6330447399
 10
1000.8700193933
 20
-705.3080692193
 10
997.2181420643
 20
-713.9539409256
 10
993.3595579441
 20
-722.558850638
 10
989.2995373944
 20
-731.1110450849
 10
985.0436259151
 20
-739.5988429973
 10
980.5976365691
 20
-748.0106510643
 10
975.9676420433
 20
-756.3349797679
 10
971.1599663532
 20
-764.5604590763
 10
966.1811762054
 20
-772.6758539743
 10
961.0380720286
 20
-780.6700798086
 10
955.7376786842
 20
-788.5322174283
 10
950.2872358721
 20
-796.2515280991
 10
944.6941882415
 20
-803.8174681712
 10
938.9661752228
 20
-811.2197034805
 10
933.1110205926
 20
-818.4481234639
 10
927.136721788
 20
-825.4928549692
 10
921.0514389825
 20
-832.3442757406
 10
914.8634839405
 20
-838.9930275615
 10
908.5813086641
 20
-845.4300290365
 10
902.2134938491
 20
-851.646487996
 10
895.7687371647
 20
-857.6339135048
 10
889.2558413733
 20
-863.3841274599
 10
882.683702307
 20
-868.8892757606
 10
876.0612967174
 20
-874.1418390365
 10
869.3976700138
 20
-879.1346429181
 10
862.7019239088
 20
-883.8608678358
 10
855.9832039862
 20
-888.3140583348
 10
849.2506872093
 20
-892.4881318926
 10
842.5135693861
 20
-896.3773872268
 10
835.7810526091
 20
-899.9765120825
 10
829.0623326865
 20
-903.280590488
 10
822.3665865816
 20
-906.2851094696
 10
815.702959878
 20
-908.9859652158
 10
809.0805542883
 20
-911.3794686825
 10
802.5084152221
 20
-913.462350632
 10
795.9955194306
 20
-915.231766098
 10
789.5507627462
 20
-916.6852982717
 10
783.1829479313
 20
-917.8209618032
 10
776.9007726549
 20
-918.6372055126
 10
770.7128176128
 20
-919.1329145092
 10
764.6275348073
 20
-919.3074117142
 10
758.6532360027
 20
-919.1604587853
 10
752.7980813726
 20
-918.6922564426
 10
747.0700683538
 20
-917.9034441941
 10
741.4770207233
 20
-916.7950994625
 10
736.0265779112
 20
-915.3687361134
 10
730.7261845668
 20
-913.6263023876
 10
725.5830803899
 20
-911.5701782398
 10
720.6042902422
 20
-909.2031720885
 10
715.796614552
 20
-906.5285169793
 10
711.1666200262
 20
-903.5498661692
 10
706.7206306803
 20
-900.2712881372
 10
702.4647192009
 20
-896.6972610263
 10
698.4046986513
 20
-892.8326665277
 10
694.546114531
 20
-888.6827832126
 10
690.894237202
 20
-884.2532793225
 10
687.4540546893
 20
-879.5502050268
 10
684.2302658685
 20
-874.5799841595
 10
681.2272740473
 20
-869.3494054442
 10
678.4491809513
 20
-863.8656132223
 10
675.8997811216
 20
-858.1360976945
 10
673.5825567316
 20
-852.1686846897
 10
671.5006728311
 20
-845.9715249764
 10
669.6569730231
 20
-839.5530831291
 10
668.0539755798
 20
-832.9221259676
 10
666.6938700029
 20
-826.0877105815
 10
665.5785140329
 20
-819.0591719604
 10
664.7094311121
 20
-811.8461102424
 10
664.087808303
 20
-804.4583776023
 10
663.7144946677
 20
-796.9060647941
 10
663.5900001078
 20
-789.1994873689
  0
LWPOLYLINE
  5
BB
330
1F
100
AcDbEntity
  8
0
  6
Continuous
 62
     7
370
    25
100
AcDbPolyline
 90
       96
 70
   128
 43
0.0
 10
1035.1891338412
 20
-429.528272621
 10
1037.8117403756
 20
-431.0935485163
 10
1042.8965119043
 20
-434.43608496
 10
1047.7967821448
 20
-438.0778288534
 10
1052.5070781196
 20
-442.0147128327
 10
1057.0221390285
 20
-446.2423399005
 10
1061.3369221241
 20
-450.755988336
 10
1065.4466083436
 20
-455.5506169693
 10
1069.3466076912
 20
-460.6208708114
 10
1073.0325643648
 20
-465.9610870349
 10
1076.5003616206
 20
-471.565301299
 10
1079.7461263712
 20
-477.4272544107
 10
1082.7662335108
 20
-483.5403993156
 10
1085.557309965
 20
-489.8979084099
 10
1088.1162384569
 20
-496.4926811663
 10
1090.4401609896
 20
-503.3173520643
 10
1092.5264820379
 20
-510.3642988162
 10
1094.372871447
 20
-517.6256508809
 10
1095.9772670354
 20
-525.0932982536
 10
1097.3378768977
 20
-532.7589005239
 10
1098.4531814061
 20
-540.6138961913
 10
1099.3219349075
 20
-548.6495122267
 10
1099.9431671152
 20
-556.8567738713
 10
1100.3161841918
 20
-565.2265146599
 10
1100.4405695248
 20
-573.7493866589
 10
1100.3161841918
 20
-582.4158709065
 10
1099.9431671152
 20
-591.2162880446
 10
1099.3219349075
 20
-600.1408091288
 10
1098.4531814061
 20
-609.1794666067
 10
1097.3378768977
 20
-618.3221654499
 10
1095.9772670354
 20
-627.5586944291
 10
1094.372871447
 20
-636.8787375188
 10
1092.5264820379
 20
-646.2718854187
 10
1090.4401609896
 20
-655.72764718
 10
1088.1162384569
 20
-665.2354619219
 10
1085.557309965
 20
-674.7847106273
 10
1082.7662335108
 20
-684.3647280025
 10
1079.7461263712
 20
-693.9648143892
 10
1076.5003616206
 20
-703.5742477145
 10
1073.0325643648
 20
-713.1822954662
 10
1069.3466076912
 20
-722.7782266796
 10
1065.4466083436
 20
-732.3513239228
 10
1061.3369221241
 20
-741.8908952661
 10
1057.0221390285
 20
-751.3862862244
 10
1052.5070781196
 20
-760.8268916563
 10
1047.7967821448
 20
-770.2021676087
 10
1042.8965119043
 20
-779.5016430935
 10
1037.8117403756
 20
-788.7149317818
 10
1032.5481466001
 20
-797.8317436045
 10
1027.1116093414
 20
-806.8418962448
 10
1021.5082005185
 20
-815.7353265107
 10
1015.7441784249
 20
-824.502101574
 10
1009.8259807387
 20
-833.1324300646
 10
1003.7602173322
 20
-841.6166730055
 10
997.55366289
 20
-849.9453545786
 10
991.2132493425
 20
-858.1091727084
 10
984.7460581233
 20
-866.0990094505
 10
978.1593122607
 20
-873.9059411756
 10
971.4603683104
 20
-881.5212485361
 10
964.6567081388
 20
-888.9364262043
 10
957.7559305672
 20
-896.1431923719
 10
950.7657428845
 20
-903.1334979997
 10
943.6939522395
 20
-909.8995358073
 10
936.5484569208
 20
-916.4337489928
 10
929.3372375361
 20
-922.728839673
 10
922.0683480981
 20
-928.7777770339
 10
914.7499070299
 20
-934.5738051836
 10
907.3900880974
 20
-940.1104506973
 10
899.9971112803
 20
-945.3815298477
 10
892.5792335912
 20
-950.3811555113
 10
885.1447398542
 20
-955.1037437434
 10
877.7019334511
 20
-959.544020015
 10
870.2591270479
 20
-963.6970251033
 10
862.8246333109
 20
-967.5581206311
 10
855.4067556219
 20
-971.1229942468
 10
848.0137788047
 20
-974.387664441
 10
840.6539598722
 20
-977.3484849931
 10
833.335518804
 20
-980.002149044
 10
826.0666293661
 20
-982.3456927891
 10
818.8554099813
 20
-984.3764987889
 10
811.7099146626
 20
-986.0922988918
 10
804.6381240176
 20
-987.4911767679
 10
797.6479363349
 20
-988.5715700489
 10
790.7471587633
 20
-989.3322720731
 10
783.9434985917
 20
-989.7724332334
 10
777.2445546414
 20
-989.8915619258
 10
770.6578087789
 20
-989.6895250989
 10
764.1906175597
 20
-989.1665484019
 10
757.8502040121
 20
-988.3232159333
 10
751.64364957
 20
-987.1604695878
 10
745.5778861635
 20
-985.6796080049
 10
739.6596884772
 20
-983.8822851183
 10
733.8956663836
 20
-981.7705083085
 10
728.2922575608
 20
-979.3466361611
 10
722.855720302
 20
-976.6133758324
 10
720.2147330609
 20
-975.1390559209
  0
LWPOLYLINE
  5
BC
330
1F
100
AcDbEntity
  8
0
  6
Continuous
 62
     7
370
    25
100
AcDbPolyline
 90
      101
 70
   128
 43
0.0
 10
1117.3630590435
 20
-442.3261920612
 10
1118.0634266838
 20
-442.7338019437
 10
1123.4542141608
 20
-446.1001121993
 10
1128.6633596177
 20
-449.7664986402
 10
1133.6855645054
 20
-453.7292319547
 10
1138.515720424
 20
-457.9842813978
 10
1143.1489143185
 20
-462.5273188915
 10
1147.5804334765
 20
-467.353723427
 10
1151.8057703215
 20
-472.4585857652
 10
1155.8206269982
 20
-477.83671343
 10
1159.6209197436
 20
-483.4826359901
 10
1163.2027830413
 20
-489.390610623
 10
1166.5625735532
 20
-495.5546279568
 10
1169.6968738254
 20
-501.9684181822
 10
1172.6024957643
 20
-508.6254574305
 10
1175.2764838792
 20
-515.518974409
 10
1177.7161182891
 20
-522.6419572886
 10
1179.9189174884
 20
-529.9871608362
 10
1181.8826408719
 20
-537.5471137839
 10
1183.6052910131
 20
-545.3141264289
 10
1185.0851156963
 20
-553.2802984547
 10
1186.3206096991
 20
-561.4375269676
 10
1187.3105163227
 20
-569.7775147381
 10
1188.0538286711
 20
-578.2917786411
 10
1188.5497906746
 20
-586.9716582838
 10
1188.797897859
 20
-595.8083248157
 10
1188.797897859
 20
-604.7927899083
 10
1188.5497906746
 20
-613.9159148979
 10
1188.0538286711
 20
-623.1684200812
 10
1187.3105163227
 20
-632.540894154
 10
1186.3206096991
 20
-642.0238037845
 10
1185.0851156963
 20
-651.6075033097
 10
1183.6052910131
 20
-661.2822445469
 10
1181.8826408719
 20
-671.0381867093
 10
1179.9189174884
 20
-680.8654064154
 10
1177.7161182891
 20
-690.7539077829
 10
1175.2764838792
 20
-700.6936325961
 10
1172.6024957643
 20
-710.6744705367
 10
1169.6968738254
 20
-720.6862694675
 10
1166.5625735532
 20
-730.7188457592
 10
1163.2027830413
 20
-740.7619946484
 10
1159.6209197436
 20
-750.8055006176
 10
1155.8206269982
 20
-760.8391477861
 10
1151.8057703215
 20
-770.8527303014
 10
1147.5804334765
 20
-780.8360627198
 10
1143.1489143185
 20
-790.7789903669
 10
1138.5157204239
 20
-800.6713996666
 10
1133.6855645054
 20
-810.5032284281
 10
1128.6633596177
 20
-820.2644760811
 10
1123.4542141608
 20
-829.9452138475
 10
1118.0634266838
 20
-839.535594841
 10
1112.4964804951
 20
-849.0258640827
 10
1106.7590380853
 20
-858.4063684239
 10
1100.8569353674
 20
-867.6675663645
 10
1094.7961757407
 20
-876.8000377584
 10
1088.5829239844
 20
-885.7944933956
 10
1082.2234999872
 20
-894.6417844502
 10
1075.7243723184
 20
-903.3329117871
 10
1069.092151649
 20
-911.8590351146
 10
1062.3335840272
 20
-920.2114819775
 10
1055.4555440165
 20
-928.3817565774
 10
1048.4650277033
 20
-936.361548415
 10
1041.3691455809
 20
-944.1427407428
 10
1034.1751153165
 20
-951.7174188214
 10
1026.89025441
 20
-959.0778779702
 10
1019.5219727511
 20
-966.2166314039
 10
1012.0777650817
 20
-973.1264178479
 10
1004.5652033729
 20
-979.8002089247
 10
996.991929123
 20
-986.2312163022
 10
989.365645585
 20
-992.412898599
 10
981.6941099306
 20
-998.3389680376
 10
973.9851253606
 20
-1004.0033968409
 10
966.2465331672
 20
-1009.4004233624
 10
958.4862047587
 20
-1014.5245579477
 10
950.7120336524
 20
-1019.3705885175
 10
942.9319274459
 20
-1023.93358587
 10
935.1537997738
 20
-1028.2089086939
 10
927.3855622583
 20
-1032.1922082898
 10
919.6351164616
 20
-1035.8794329938
 10
911.9103458489
 20
-1039.2668322978
 10
904.2191077693
 20
-1042.3509606654
 10
896.5692254643
 20
-1045.1286810359
 10
888.9684801094
 20
-1047.5971680155
 10
881.4246029002
 20
-1049.753910751
 10
873.9452671879
 20
-1051.5967154841
 10
866.5380806745
 20
-1053.1237077822
 10
859.2105776747
 20
-1054.3333344456
 10
851.9702114518
 20
-1055.224365087
 10
844.8243466371
 20
-1055.7958933833
 10
837.7802517385
 20
-1056.0473379971
 10
830.8450917471
 20
-1055.9784431683
 10
824.0259208499
 20
-1055.5892789741
 10
817.3296752537
 20
-1054.8802412579
 10
810.7631661304
 20
-1053.8520512266
 10
804.3330726889
 20
-1052.5057547166
 10
798.045935381
 20
-1050.8427211309
 10
791.908149249
 20
-1048.8646420452
 10
785.9259574204
 20
-1046.573529488
 10
780.1054447584
 20
-1043.9717138938
 10
774.4525316718
 20
-1041.0618417326
 10
772.3910962841
 20
-1039.8999071039
  0
LWPOLYLINE
  5
BD
330
1F
100
AcDbEntity
  8
0
  6
Continuous
 62
     7
370
    25
100
AcDbPolyline
 90
      128
 70
   128
 43
0.0
 10
981.9139319477
 20
-401.7646096302
 10
988.2131745393
 20
-400.8740970089
 10
995.4072048038
 20
-400.1427245436
 10
1002.5030869262
 20
-399.73118576
 10
1009.4936032394
 20
-399.6398992601
 10
1016.3716432501
 20
-399.8689578972
 10
1023.1302108719
 20
-400.4181286813
 10
1029.7624315413
 20
-401.2868530163
 10
1036.26155921
 20
-402.4742472682
 10
1042.6209832073
 20
-403.9791036637
 10
1048.8342349636
 20
-405.7998915189
 10
1054.8949945903
 20
-407.934758796
 10
1060.7970973082
 20
-410.3815339876
 10
1066.534539718
 20
-413.1377283248
 10
1072.1014859067
 20
-416.2005383094
 10
1077.4922733837
 20
-419.566848565
 10
1082.7014188405
 20
-423.233235006
 10
1087.7236237283
 20
-427.1959683205
 10
1092.5537796468
 20
-431.4510177635
 10
1097.1869735414
 20
-435.9940552572
 10
1101.6184926994
 20
-440.8204597927
 10
1105.8438295444
 20
-445.9253221309
 10
1109.8586862211
 20
-451.3034497958
 10
1113.6589789664
 20
-456.9493723559
 10
1117.2408422641
 20
-462.8573469888
 10
1120.600632776
 20
-469.0213643226
 10
1123.7349330483
 20
-475.435154548
 10
1126.6405549871
 20
-482.0921937963
 10
1129.3145431021
 20
-488.9857107748
 10
1131.754177512
 20
-496.1086936544
 10
1133.9569767113
 20
-503.453897202
 10
1135.9207000948
 20
-511.0138501497
 10
1137.6433502359
 20
-518.7808627946
 10
1139.1231749192
 20
-526.7470348205
 10
1140.3586689219
 20
-534.9042633333
 10
1141.3485755456
 20
-543.2442511039
 10
1142.091887894
 20
-551.7585150068
 10
1142.5878498975
 20
-560.4383946496
 10
1142.8359570819
 20
-569.2750611815
 10
1142.8359570819
 20
-578.2595262741
 10
1142.5878498975
 20
-587.3826512637
 10
1142.091887894
 20
-596.6351564469
 10
1141.3485755456
 20
-606.0076305198
 10
1140.3586689219
 20
-615.4905401503
 10
1139.1231749192
 20
-625.0742396754
 10
1137.6433502359
 20
-634.7489809126
 10
1135.9207000948
 20
-644.504923075
 10
1133.9569767113
 20
-654.3321427811
 10
1131.754177512
 20
-664.2206441487
 10
1129.3145431021
 20
-674.1603689619
 10
1126.6405549871
 20
-684.1412069024
 10
1123.7349330483
 20
-694.1530058333
 10
1120.600632776
 20
-704.185582125
 10
1117.2408422641
 20
-714.2287310142
 10
1113.6589789664
 20
-724.2722369833
 10
1109.8586862211
 20
-734.3058841519
 10
1105.8438295444
 20
-744.3194666672
 10
1101.6184926994
 20
-754.3027990855
 10
1097.1869735414
 20
-764.2457267326
 10
1092.5537796468
 20
-774.1381360323
 10
1087.7236237282
 20
-783.9699647939
 10
1082.7014188405
 20
-793.7312124469
 10
1077.4922733837
 20
-803.4119502133
 10
1072.1014859067
 20
-813.0023312067
 10
1066.534539718
 20
-822.4926004485
 10
1060.7970973082
 20
-831.8731047896
 10
1054.8949945903
 20
-841.1343027302
 10
1048.8342349636
 20
-850.2667741242
 10
1042.6209832073
 20
-859.2612297613
 10
1036.26155921
 20
-868.108520816
 10
1029.7624315413
 20
-876.7996481528
 10
1023.1302108719
 20
-885.3257714804
 10
1016.3716432501
 20
-893.6782183433
 10
1009.4936032394
 20
-901.8484929432
 10
1002.5030869262
 20
-909.8282847807
 10
995.4072048038
 20
-917.6094771085
 10
988.2131745393
 20
-925.1841551872
 10
980.9283136329
 20
-932.544614336
 10
973.560031974
 20
-939.6833677696
 10
966.1158243046
 20
-946.5931542137
 10
958.6032625958
 20
-953.2669452905
 10
951.0299883459
 20
-959.697952668
 10
943.4037048078
 20
-965.8796349647
 10
935.7321691534
 20
-971.8057044034
 10
928.0231845834
 20
-977.4701332066
 10
920.2845923901
 20
-982.8671597282
 10
912.5242639816
 20
-987.9912943134
 10
904.7500928753
 20
-992.8373248833
 10
896.9699866688
 20
-997.4003222357
 10
889.1918589967
 20
-1001.6756450596
 10
881.4236214812
 20
-1005.6589446556
 10
873.6731756845
 20
-1009.3461693595
 10
865.9484050717
 20
-1012.7335686635
 10
858.2571669922
 20
-1015.8176970311
 10
850.6072846872
 20
-1018.5954174017
 10
843.0065393323
 20
-1021.0639043813
 10
835.4626621231
 20
-1023.2206471168
 10
827.9833264108
 20
-1025.0634518498
 10
820.5761398974
 20
-1026.5904441479
 10
813.2486368976
 20
-1027.8000708113
 10
806.0082706747
 20
-1028.6911014528
 10
798.86240586
 20
-1029.262629749
 10
791.8183109614
 20
-1029.5140743628
 10
784.88315097
 20
-1029.445179534
 10
778.0639800728
 20
-1029.0560153399
 10
771.3677344765
 20
-1028.3469776237
 10
764.8012253533
 20
-1027.3187875923
 10
758.3711319118
 20
-1025.9724910824
 10
752.0839946039
 20
-1024.3094574966
 10
745.9462084718
 20
-1022.3313784109
 10
739.9640166433
 20
-1020.0402658537
 10
734.1435039813
 20
-1017.4384502596
 10
728.4905908947
 20
-1014.5285780984
 10
723.0110273165
 20
-1011.313609184
 10
717.710386855
 20
-1007.7968136631
 10
712.5940611243
 20
-1003.9817686893
 10
707.6672542608
 20
-999.8723547844
 10
702.934977629
 20
-995.4727518914
 10
698.4020447247
 20
-990.7874351227
 10
694.0730662787
 20
-985.8211702082
 10
689.9524455668
 20
-980.5790086478
 10
686.0443739311
 20
-975.0662825733
 10
682.3528265166
 20
-969.2885993245
 10
678.8815582281
 20
-963.251835746
 10
675.6340999106
 20
-956.962132209
 10
672.6137547578
 20
-950.425886366
 10
669.8235949525
 20
-943.6497466432
 10
669.5300680546
 20
-942.8879652003
  0
LWPOLYLINE
  5
BE
330
1F
100
AcDbEntity
  8
0
  6
Continuous
 62
     7
370
    25
100
AcDbPolyline
 90
      108
 70
   128
 43
0.0
 10
1029.1024190817
 20
-423.2200599815
 10
1029.8861575608
 20
-423.3997409863
 10
1035.9868459668
 20
-424.9962715153
 10
1041.9376484713
 20
-426.9094573658
 10
1047.7320579593
 20
-429.1372064971
 10
1053.363738329
 20
-431.6770828981
 10
1058.8265314206
 20
-434.5263092515
 10
1064.1144637501
 20
-437.6817699698
 10
1069.221753041
 20
-441.1400146033
 10
1074.1428145477
 20
-444.8972616122
 10
1078.8722671614
 20
-448.9494025019
 10
1083.4049392954
 20
-453.292006316
 10
1087.735874539
 20
-457.920324481
 10
1091.8603370783
 20
-462.8292959988
 10
1095.7738168739
 20
-468.0135529812
 10
1099.4720345932
 20
-473.4674265194
 10
1102.9509462895
 20
-479.1849528826
 10
1106.2067478237
 20
-485.1598800397
 10
1109.2358790249
 20
-491.3856744956
 10
1112.0350275824
 20
-497.8555284355
 10
1114.6011326684
 20
-504.562367169
 10
1116.9313882847
 20
-511.4988568666
 10
1119.023246331
 20
-518.6574125785
 10
1120.8744193912
 20
-526.0302065292
 10
1122.4828832347
 20
-533.6091766767
 10
1123.84687903
 20
-541.3860355284
 10
1124.9649152677
 20
-549.3522792035
 10
1125.8357693916
 20
-557.4991967313
 10
1126.4584891354
 20
-565.8178795772
 10
1126.8323935643
 20
-574.2992313836
 10
1126.9570738193
 20
-582.9339779169
 10
1126.8323935643
 20
-591.7126772084
 10
1126.4584891354
 20
-600.6257298794
 10
1125.8357693916
 20
-609.6633896377
 10
1124.9649152677
 20
-618.815773935
 10
1123.84687903
 20
-628.0728747734
 10
1122.4828832347
 20
-637.4245696491
 10
1120.8744193912
 20
-646.8606326211
 10
1119.023246331
 20
-656.370745493
 10
1116.9313882847
 20
-665.944509096
 10
1114.6011326684
 20
-675.5714546601
 10
1112.0350275824
 20
-685.2410552619
 10
1109.2358790249
 20
-694.9427373348
 10
1106.2067478237
 20
-704.6658922322
 10
1102.9509462895
 20
-714.3998878267
 10
1099.4720345932
 20
-724.1340801372
 10
1095.7738168739
 20
-733.8578249673
 10
1091.8603370783
 20
-743.5604895448
 10
1087.735874539
 20
-753.2314641484
 10
1083.4049392954
 20
-762.8601737093
 10
1078.8722671614
 20
-772.4360893751
 10
1074.1428145477
 20
-781.9487400225
 10
1069.221753041
 20
-791.3877237077
 10
1064.1144637501
 20
-800.7427190407
 10
1058.8265314206
 20
-810.0034964713
 10
1053.363738329
 20
-819.1599294755
 10
1047.7320579593
 20
-828.2020056282
 10
1041.9376484713
 20
-837.1198375519
 10
1035.9868459668
 20
-845.9036737282
 10
1029.8861575608
 20
-854.5439091614
 10
1023.6422542667
 20
-863.0310958807
 10
1017.2619637009
 20
-871.3559532721
 10
1010.7522626175
 20
-879.5093782264
 10
1004.1202692791
 20
-887.482455093
 10
997.373235673
 20
-895.2664654293
 10
990.5185395815
 20
-902.8528975345
 10
983.5636765141
 20
-910.2334557564
 10
976.5162515113
 20
-917.4000695629
 10
969.383970829
 20
-924.344902367
 10
962.1746335115
 20
-931.0603600961
 10
954.8961228631
 20
-937.5390994957
 10
947.5563978285
 20
-943.7740361594
 10
940.1634842892
 20
-949.7583522754
 10
932.7254662876
 20
-955.4855040821
 10
925.2504771872
 20
-960.9492290229
 10
917.7466907788
 20
-966.1435525948
 10
910.2223123427
 20
-971.0627948814
 10
902.6855696763
 20
-975.7015767633
 10
895.144704097
 20
-980.0548258008
 10
887.6079614306
 20
-984.1177817798
 10
880.0835829945
 20
-987.8860019177
 10
872.5797965862
 20
-991.355365721
 10
865.1048074858
 20
-994.5220794915
 10
857.6667894842
 20
-997.382680474
 10
850.2738759448
 20
-999.9340406435
 10
842.9341509102
 20
-1002.173370125
 10
835.6556402619
 20
-1004.0982202446
 10
828.4463029443
 20
-1005.7064862069
 10
821.314022262
 20
-1006.9964093968
 10
814.2665972593
 20
-1007.9665793022
 10
807.3117341918
 20
-1008.6159350565
 10
800.4570381003
 20
-1008.9437665987
 10
793.7100044942
 20
-1008.9497154499
 10
787.0780111559
 20
-1008.6337751051
 10
780.5683100725
 20
-1007.9962910404
 10
774.1880195067
 20
-1007.0379603353
 10
767.9441162125
 20
-1005.7598309103
 10
761.8434278065
 20
-1004.1633003813
 10
755.892625302
 20
-1002.2501145308
 10
750.098215814
 20
-1000.0223653995
 10
744.4665354443
 20
-997.4824889985
 10
739.0037423527
 20
-994.6332626451
 10
733.7158100233
 20
-991.4778019268
 10
728.6085207323
 20
-988.0195572933
 10
723.6874592257
 20
-984.2623102844
 10
718.9580066119
 20
-980.2101693947
 10
714.425334478
 20
-975.8675655806
 10
711.7081046514
 20
-973.0227108707
  0
LWPOLYLINE
  5
BF
330
1F
100
AcDbEntity
  8
0
  6
Continuous
 62
     7
370
    25
100
AcDbPolyline
 90
       57
 70
   128
 43
0.0
 10
741.2303246821
 20
-834.020292708
 10
741.354819242
 20
-826.1699769233
 10
741.7281328773
 20
-818.1866453664
 10
742.3497556863
 20
-810.0812023079
 10
743.2188386072
 20
-801.8647188079
 10
744.3341945772
 20
-793.5484175946
 10
745.6943001541
 20
-785.1436577352
 10
747.2972975974
 20
-776.6619191206
 10
749.1409974054
 20
-768.1147867855
 10
751.2228813059
 20
-759.5139350847
 10
753.5401056959
 20
-750.8711117469
 10
756.0895055256
 20
-742.1981218293
 10
758.8675986216
 20
-733.5068115927
 10
761.8705904428
 20
-724.8090523217
 10
765.0943792636
 20
-716.1167241091
 10
768.5345617763
 20
-707.4416996296
 10
772.1864391053
 20
-698.7958279233
 10
776.0450232256
 20
-690.190918211
 10
780.1050437752
 20
-681.6387237641
 10
784.3609552546
 20
-673.1509258517
 10
788.8069446005
 20
-664.7391177847
 10
793.4369391263
 20
-656.4147890811
 10
798.2446148165
 20
-648.1893097726
 10
803.2234049642
 20
-640.0739148746
 10
808.3665091411
 20
-632.0796890403
 10
813.6669024854
 20
-624.2175514206
 10
819.1173452975
 20
-616.4982407498
 10
824.7103929281
 20
-608.9323006778
 10
830.4384059469
 20
-601.5300653685
 10
836.293560577
 20
-594.3016453851
 10
842.2678593816
 20
-587.2569138798
 10
848.3531421871
 20
-580.4054931083
 10
854.5410972292
 20
-573.7567412875
 10
860.8232725056
 20
-567.3197398124
 10
867.1910873205
 20
-561.1032808529
 10
873.6358440049
 20
-555.1158553441
 10
880.1487397964
 20
-549.3656413891
 10
886.7208788626
 20
-543.8604930884
 10
893.3432844523
 20
-538.6079298125
 10
900.0069111558
 20
-533.6151259309
 10
906.7026572608
 20
-528.8889010132
 10
913.4213771834
 20
-524.4357105142
 10
920.1538939603
 20
-520.2616369563
 10
926.8910117836
 20
-516.3723816221
 10
933.6235285605
 20
-512.7732567665
 10
940.3422484831
 20
-509.469178361
 10
947.0379945881
 20
-506.4646593794
 10
953.7016212916
 20
-503.7638036332
 10
960.3240268813
 20
-501.3703001664
 10
966.8961659476
 20
-499.287418217
 10
973.409061739
 20
-497.518002751
 10
979.8538184234
 20
-496.0644705772
 10
986.2216332383
 20
-494.9288070457
 10
992.5038085147
 20
-494.1125633363
 10
998.6917635568
 20
-493.6168543397
 10
1004.7770463623
 20
-493.4423571348
 10
1007.6087360744
 20
-493.4716077454
  0
LWPOLYLINE
  5
C0
330
1F
100
AcDbEntity
  8
0
  6
Continuous
 62
     7
370
    25
100
AcDbPolyline
 90
       14
 70
   128
 43
0.0
 10
761.7958450952
 20
-919.2781611036
 10
758.8675986216
 20
-914.1702107832
 10
756.0895055256
 20
-908.6864185614
 10
753.5401056959
 20
-902.9569030336
 10
751.2228813059
 20
-896.9894900288
 10
749.1409974054
 20
-890.7923303154
 10
747.2972975974
 20
-884.3738884682
 10
745.6943001541
 20
-877.7429313066
 10
744.3341945772
 20
-870.9085159206
 10
743.2188386072
 20
-863.8799772994
 10
742.3497556863
 20
-856.6669155814
 10
741.7281328773
 20
-849.2791829413
 10
741.354819242
 20
-841.7268701332
 10
741.2303246821
 20
-834.020292708
  0
LWPOLYLINE
  5
C1
330
1F
100
AcDbEntity
  8
0
  6
Continuous
 62
     7
370
    25
100
AcDbPolyline
 90
       44
 70
   128
 43
0.0
 10
741.5260785506
 20
-845.8357389591
 10
741.7263979371
 20
-841.9852464715
 10
742.3459229028
 20
-833.4504907372
 10
743.2122008831
 20
-824.8032360543
 10
744.3241764516
 20
-816.0540177707
 10
745.6804948375
 20
-807.2134954612
 10
747.2795035756
 20
-798.2924399403
 10
749.1192545202
 20
-789.3017201401
 10
751.1975062182
 20
-780.2522898677
 10
753.5117266399
 20
-771.15517446
 10
756.0590962642
 20
-762.0214573508
 10
758.8365115137
 20
-752.8622665673
 10
761.8405885357
 20
-743.6887611728
 10
765.067667325
 20
-734.5121176705
 10
768.5138161834
 20
-725.3435163869
 10
772.1748365092
 20
-716.1941278505
 10
776.0462679131
 20
-707.0750991816
 10
780.1233936523
 20
-697.9975405122
 10
784.4012463771
 20
-688.9725114492
 10
788.8746141829
 20
-680.0110076003
 10
793.5380469601
 20
-671.1239471774
 10
798.3858630343
 20
-662.3221576949
 10
803.4121560882
 20
-653.6163627773
 10
808.6108023581
 20
-645.0171690947
 10
813.9754680942
 20
-636.5350534401
 10
819.4996172778
 20
-628.1803499647
 10
825.1765195839
 20
-619.963237588
 10
830.9992585816
 20
-611.8937275954
 10
836.9607401602
 20
-603.9816514419
 10
843.0537011729
 20
-596.2366487737
 10
849.2707182852
 20
-588.6681556833
 10
855.6042170193
 20
-581.2853932138
 10
862.0464809827
 20
-574.097356124
 10
868.5896612691
 20
-567.1128019299
 10
875.2257860212
 20
-560.3402402348
 10
881.9467701432
 20
-553.7879223621
 10
888.7444251512
 20
-547.4638313016
 10
895.6104691497
 20
-541.3756719843
 10
902.5365369218
 20
-535.5308618943
 10
909.5141901207
 20
-529.9365220326
 10
916.5349275509
 20
-524.5994682404
 10
923.5901955252
 20
-519.5262028957
 10
930.6713982863
 20
-514.7229069909
 10
933.8726484382
 20
-512.6456054072
  0
ENDSEC
  0
SECTION
  2
OBJECTS
  0
DICTIONARY
  5
C
330
0
100
AcDbDictionary
281
     1
  3
ACAD_GROUP
350
D
  3
ACAD_LAYOUT
350
1A
  3
ACAD_MLINESTYLE
350
17
  3
ACAD_PLOTSETTINGS
350
19
  3
ACAD_PLOTSTYLENAME
350
E
  3
ACAD_SCALELIST
350
47
  0
DICTIONARY
  5
D
102
{ACAD_REACTORS
330
C
102
}
330
C
100
AcDbDictionary
281
     1
  0
DICTIONARY
  5
1A
102
{ACAD_REACTORS
330
C
102
}
330
C
100
AcDbDictionary
281
     1
  3
Layout1
350
1E
  3
Layout2
350
26
  3
Model
350
22
  0
DICTIONARY
  5
17
102
{ACAD_REACTORS
330
C
102
}
330
C
100
AcDbDictionary
281
     1
  3
Standard
350
18
  0
DICTIONARY
  5
19
102
{ACAD_REACTORS
330
C
102
}
330
C
100
AcDbDictionary
281
     1
  0
ACDBDICTIONARYWDFLT
  5
E
102
{ACAD_REACTORS
330
C
102
}
330
C
100
AcDbDictionary
281
     1
  3
Normal
350
F
100
AcDbDictionaryWithDefault
340
F
  0
DICTIONARY
  5
47
102
{ACAD_REACTORS
330
C
102
}
330
C
100
AcDbDictionary
281
     1
  3
A0
350
48
  3
A1
350
49
  3
A2
350
4A
  3
A3
350
4B
  3
A4
350
4C
  3
A5
350
4D
  3
A6
350
4E
  3
A7
350
4F
  3
A8
350
50
  3
A9
350
51
  3
B0
350
52
  3
B1
350
53
  3
B2
350
54
  3
B3
350
55
  3
B4
350
56
  3
B5
350
57
  3
B6
350
58
  3
B7
350
59
  3
B8
350
5A
  3
B9
350
5B
  3
C0
350
5C
  3
C1
350
5D
  3
C2
350
5E
  3
C3
350
5F
  3
C4
350
60
  3
C5
350
61
  3
C6
350
62
  3
C7
350
63
  3
C8
350
64
  3
C9
350
65
  3
D0
350
66
  3
D1
350
67
  3
D2
350
68
  0
LAYOUT
  5
1E
102
{ACAD_REACTORS
330
1A
102
}
330
1A
100
AcDbPlotSettings
  1

  2
none_device
  4

  6

 40
0.0
 41
0.0
 42
0.0
 43
0.0
 44
0.0
 45
0.0
 46
0.0
 47
0.0
 48
0.0
 49
0.0
140
0.0
141
0.0
142
1.0
143
1.0
 70
   688
 72
     1
 73
     0
 74
     5
  7

 75
    16
147
1.0
148
0.0
149
0.0
100
AcDbLayout
  1
Layout1
 70
     1
 71
     1
 10
0.0
 20
0.0
 11
420.0
 21
297.0
 12
0.0
 22
0.0
 32
0.0
 14
1.0000000000E+20
 24
1.0000000000E+20
 34
1.0000000000E+20
 15
-1.0000000000E+20
 25
-1.0000000000E+20
 35
-1.0000000000E+20
146
0.0
 13
0.0
 23
0.0
 33
0.0
 16
1.0
 26
0.0
 36
0.0
 17
0.0
 27
1.0
 37
0.0
 76
     0
330
1B
  0
LAYOUT
  5
26
102
{ACAD_REACTORS
330
1A
102
}
330
1A
100
AcDbPlotSettings
  1

  2
none_device
  4

  6

 40
0.0
 41
0.0
 42
0.0
 43
0.0
 44
0.0
 45
0.0
 46
0.0
 47
0.0
 48
0.0
 49
0.0
140
0.0
141
0.0
142
1.0
143
1.0
 70
   688
 72
     1
 73
     0
 74
     5
  7

 75
    16
147
1.0
148
0.0
149
0.0
100
AcDbLayout
  1
Layout2
 70
     1
 71
     2
 10
0.0
 20
0.0
 11
0.0
 21
0.0
 12
0.0
 22
0.0
 32
0.0
 14
0.0
 24
0.0
 34
0.0
 15
0.0
 25
0.0
 35
0.0
146
0.0
 13
0.0
 23
0.0
 33
0.0
 16
1.0
 26
0.0
 36
0.0
 17
0.0
 27
1.0
 37
0.0
 76
     0
330
23
  0
LAYOUT
  5
22
102
{ACAD_REACTORS
330
1A
102
}
330
1A
100
AcDbPlotSettings
  1

  2
none_device
  4
Letter_(8.50_x_11.00_Inches)
  6

 40
6.35
 41
6.35
 42
6.35000508
 43
6.35000508
 44
215.9
 45
279.4
 46
0.0
 47
0.0
 48
0.0
 49
0.0
140
0.0
141
0.0
142
1.0
143
1.0
 70
  1712
 72
     1
 73
     0
 74
     0
  7

 75
     0
147
1.0
148
0.0
149
0.0
100
AcDbLayout
  1
Model
 70
     1
 71
     0
 10
0.0
 20
0.0
 11
279.4
 21
215.9
 12
0.0
 22
0.0
 32
0.0
 14
0.0
 24
0.0
 34
0.0
 15
279.4
 25
215.9
 35
0.0
146
0.0
 13
0.0
 23
0.0
 33
0.0
 16
1.0
 26
0.0
 36
0.0
 17
0.0
 27
1.0
 37
0.0
 76
     0
330
1F
331
29
  0
MLINESTYLE
  5
18
102
{ACAD_REACTORS
330
17
102
}
330
17
100
AcDbMlineStyle
  2
Standard
 70
     0
  3

 62
   256
 51
90.0
 52
90.0
 71
     2
 49
0.5
 62
   256
  6
BYLAYER
 49
-0.5
 62
   256
  6
BYLAYER
  0
ACDBPLACEHOLDER
  5
F
102
{ACAD_REACTORS
330
E
102
}
330
E
  0
SCALE
  5
48
102
{ACAD_REACTORS
330
47
102
}
330
47
100
AcDbScale
 70
     0
300
1:1
140
1.0
141
1.0
290
     1
  0
SCALE
  5
49
102
{ACAD_REACTORS
330
47
102
}
330
47
100
AcDbScale
 70
     0
300
1:2
140
1.0
141
2.0
290
     0
  0
SCALE
  5
4A
102
{ACAD_REACTORS
330
47
102
}
330
47
100
AcDbScale
 70
     0
300
1:4
140
1.0
141
4.0
290
     0
  0
SCALE
  5
4B
102
{ACAD_REACTORS
330
47
102
}
330
47
100
AcDbScale
 70
     0
300
1:5
140
1.0
141
5.0
290
     0
  0
SCALE
  5
4C
102
{ACAD_REACTORS
330
47
102
}
330
47
100
AcDbScale
 70
     0
300
1:8
140
1.0
141
8.0
290
     0
  0
SCALE
  5
4D
102
{ACAD_REACTORS
330
47
102
}
330
47
100
AcDbScale
 70
     0
300
1:10
140
1.0
141
10.0
290
     0
  0
SCALE
  5
4E
102
{ACAD_REACTORS
330
47
102
}
330
47
100
AcDbScale
 70
     0
300
1:16
140
1.0
141
16.0
290
     0
  0
SCALE
  5
4F
102
{ACAD_REACTORS
330
47
102
}
330
47
100
AcDbScale
 70
     0
300
1:20
140
1.0
141
20.0
290
     0
  0
SCALE
  5
50
102
{ACAD_REACTORS
330
47
102
}
330
47
100
AcDbScale
 70
     0
300
1:30
140
1.0
141
30.0
290
     0
  0
SCALE
  5
51
102
{ACAD_REACTORS
330
47
102
}
330
47
100
AcDbScale
 70
     0
300
1:40
140
1.0
141
40.0
290
     0
  0
SCALE
  5
52
102
{ACAD_REACTORS
330
47
102
}
330
47
100
AcDbScale
 70
     0
300
1:50
140
1.0
141
50.0
290
     0
  0
SCALE
  5
53
102
{ACAD_REACTORS
330
47
102
}
330
47
100
AcDbScale
 70
     0
300
1:100
140
1.0
141
100.0
290
     0
  0
SCALE
  5
54
102
{ACAD_REACTORS
330
47
102
}
330
47
100
AcDbScale
 70
     0
300
2:1
140
2.0
141
1.0
290
     0
  0
SCALE
  5
55
102
{ACAD_REACTORS
330
47
102
}
330
47
100
AcDbScale
 70
     0
300
4:1
140
4.0
141
1.0
290
     0
  0
SCALE
  5
56
102
{ACAD_REACTORS
330
47
102
}
330
47
100
AcDbScale
 70
     0
300
8:1
140
8.0
141
1.0
290
     0
  0
SCALE
  5
57
102
{ACAD_REACTORS
330
47
102
}
330
47
100
AcDbScale
 70
     0
300
10:1
140
10.0
141
1.0
290
     0
  0
SCALE
  5
58
102
{ACAD_REACTORS
330
47
102
}
330
47
100
AcDbScale
 70
     0
300
100:1
140
100.0
141
1.0
290
     0
  0
SCALE
  5
59
102
{ACAD_REACTORS
330
47
102
}
330
47
100
AcDbScale
 70
     0
300
1/128" = 1'-0"
140
0.0078125
141
12.0
290
     0
  0
SCALE
  5
5A
102
{ACAD_REACTORS
330
47
102
}
330
47
100
AcDbScale
 70
     0
300
1/64" = 1'-0"
140
0.015625
141
12.0
290
     0
  0
SCALE
  5
5B
102
{ACAD_REACTORS
330
47
102
}
330
47
100
AcDbScale
 70
     0
300
1/32" = 1'-0"
140
0.03125
141
12.0
290
     0
  0
SCALE
  5
5C
102
{ACAD_REACTORS
330
47
102
}
330
47
100
AcDbScale
 70
     0
300
1/16" = 1'-0"
140
0.0625
141
12.0
290
     0
  0
SCALE
  5
5D
102
{ACAD_REACTORS
330
47
102
}
330
47
100
AcDbScale
 70
     0
300
3/32" = 1'-0"
140
0.09375
141
12.0
290
     0
  0
SCALE
  5
5E
102
{ACAD_REACTORS
330
47
102
}
330
47
100
AcDbScale
 70
     0
300
1/8" = 1'-0"
140
0.125
141
12.0
290
     0
  0
SCALE
  5
5F
102
{ACAD_REACTORS
330
47
102
}
330
47
100
AcDbScale
 70
     0
300
3/16" = 1'-0"
140
0.1875
141
12.0
290
     0
  0
SCALE
  5
60
102
{ACAD_REACTORS
330
47
102
}
330
47
100
AcDbScale
 70
     0
300
1/4" = 1'-0"
140
0.25
141
12.0
290
     0
  0
SCALE
  5
61
102
{ACAD_REACTORS
330
47
102
}
330
47
100
AcDbScale
 70
     0
300
3/8" = 1'-0"
140
0.375
141
12.0
290
     0
  0
SCALE
  5
62
102
{ACAD_REACTORS
330
47
102
}
330
47
100
AcDbScale
 70
     0
300
1/2" = 1'-0"
140
0.5
141
12.0
290
     0
  0
SCALE
  5
63
102
{ACAD_REACTORS
330
47
102
}
330
47
100
AcDbScale
 70
     0
300
3/4" = 1'-0"
140
0.75
141
12.0
290
     0
  0
SCALE
  5
64
102
{ACAD_REACTORS
330
47
102
}
330
47
100
AcDbScale
 70
     0
300
1" = 1'-0"
140
1.0
141
12.0
290
     0
  0
SCALE
  5
65
102
{ACAD_REACTORS
330
47
102
}
330
47
100
AcDbScale
 70
     0
300
1-1/2" = 1'-0"
140
1.5
141
12.0
290
     0
  0
SCALE
  5
66
102
{ACAD_REACTORS
330
47
102
}
330
47
100
AcDbScale
 70
     0
300
3" = 1'-0"
140
3.0
141
12.0
290
     0
  0
SCALE
  5
67
102
{ACAD_REACTORS
330
47
102
}
330
47
100
AcDbScale
 70
     0
300
6" = 1'-0"
140
6.0
141
12.0
290
     0
  0
SCALE
  5
68
102
{ACAD_REACTORS
330
47
102
}
330
47
100
AcDbScale
 70
     0
300
1'-0" = 1'-0"
140
12.0
141
12.0
290
     0
  0
ENDSEC
  0
EOF
